Forum de la VII Compagnie


 
AccueilAccueil  CalendrierCalendrier  FAQFAQ  RechercherRechercher  S'enregistrerS'enregistrer  MembresMembres  GroupesGroupes  Connexion  

Partagez | 
 

 T'écoutes quoi là?

Voir le sujet précédent Voir le sujet suivant Aller en bas 
Aller à la page : Précédent  1, 2, 3, 4, 5  Suivant
AuteurMessage
zamilka
Chien
Chien
avatar

Nombre de messages : 85
Date d'inscription : 24/02/2006

MessageSujet: Re: T'écoutes quoi là?   Jeu 4 Mai - 15:13

Led Zep- You shook me

trop bon ça puré *fond*
Revenir en haut Aller en bas
Voir le profil de l'utilisateur
Lamebrisée
Dindon
Dindon
avatar

Nombre de messages : 149
Date d'inscription : 26/09/2005

MessageSujet: Re: T'écoutes quoi là?   Ven 5 Mai - 3:20

System of a Down
-Lonely Day
Revenir en haut Aller en bas
Voir le profil de l'utilisateur
Juanito
Murloc
Murloc


Nombre de messages : 1769
Localisation : Rouen
Date d'inscription : 10/08/2005

MessageSujet: Re: T'écoutes quoi là?   Ven 5 Mai - 4:17

Lamebrisée a écrit:
System of a Down

Je le savais, sous tes airs de pala t'es un fou schyzophrène névrosé! Very Happy
Revenir en haut Aller en bas
Voir le profil de l'utilisateur
Uasti
Murloc
Murloc
avatar

Nombre de messages : 1302
Date d'inscription : 17/08/2005

MessageSujet: Re: T'écoutes quoi là?   Ven 5 Mai - 6:48

Non JP, j'adore également cette chanson!
Tu devrais l'écouter, tu seras je pense extrêmement surpris... je ne t'en dis pas plus Very Happy
Revenir en haut Aller en bas
Voir le profil de l'utilisateur
Lamebrisée
Dindon
Dindon
avatar

Nombre de messages : 149
Date d'inscription : 26/09/2005

MessageSujet: Re: T'écoutes quoi là?   Ven 5 Mai - 14:57

Uasti a écrit:
Non JP, j'adore également cette chanson!
Tu devrais l'écouter, tu seras je pense extrêmement surpris... je ne t'en dis pas plus Very Happy
rien a ajouter, cette chanson est magnifique c'est tout^^
Revenir en haut Aller en bas
Voir le profil de l'utilisateur
Juanito
Murloc
Murloc


Nombre de messages : 1769
Localisation : Rouen
Date d'inscription : 10/08/2005

MessageSujet: Re: T'écoutes quoi là?   Sam 6 Mai - 3:40

Ai je quoté la chanson? oh bah non, alors stop répondre à côté les noobs tous wik Wink
Revenir en haut Aller en bas
Voir le profil de l'utilisateur
cold
Hyène
Hyène
avatar

Nombre de messages : 846
Localisation : paris
Date d'inscription : 02/01/2006

MessageSujet: Re: T'écoutes quoi là?   Sam 6 Mai - 3:51

skin on skin de Queen of the stone age
Revenir en haut Aller en bas
Voir le profil de l'utilisateur
Guldo
Murloc
Murloc
avatar

Nombre de messages : 1181
Localisation : Mulhouse (Alsace)
Date d'inscription : 25/08/2005

MessageSujet: Re: T'écoutes quoi là?   Sam 6 Mai - 5:34

Lamebrisée a écrit:
Uasti a écrit:
Non JP, j'adore également cette chanson!
Tu devrais l'écouter, tu seras je pense extrêmement surpris... je ne t'en dis pas plus Very Happy
rien a ajouter, cette chanson est magnifique c'est tout^^
Mouais, c'est la 1ère chanson de System qui passe à la radio. Donc forcément c'est super aséptisé. A mon sens, c'est le début de la fin pour eux s'ils continuent dans cette voie.

Arretez vos conneries et écoutez plutôt l'album Toxicity. C'est du vrai System of a Down rambo
Revenir en haut Aller en bas
Voir le profil de l'utilisateur
zamilka
Chien
Chien
avatar

Nombre de messages : 85
Date d'inscription : 24/02/2006

MessageSujet: Re: T'écoutes quoi là?   Sam 6 Mai - 10:21

+1 avec guldo! cheers pis en plus ils piquent leurs phrases à Bon Jovi puker
Revenir en haut Aller en bas
Voir le profil de l'utilisateur
ptitcress
Murloc
Murloc
avatar

Nombre de messages : 1008
Localisation : paris
Date d'inscription : 04/12/2005

MessageSujet: Re: T'écoutes quoi là?   Sam 6 Mai - 10:42

Burning spears
Revenir en haut Aller en bas
Voir le profil de l'utilisateur
Longshu
Hyène
Hyène
avatar

Nombre de messages : 727
Localisation : Paris
Date d'inscription : 09/09/2005

MessageSujet: Re: T'écoutes quoi là?   Sam 6 Mai - 11:46

http://www.jeuxvideo.com/cgi-bin/jvforums/rd_forums.cgi?http://home.tele2.fr/miyu/Wow/OSEF_FINAL.mp3
Revenir en haut Aller en bas
Voir le profil de l'utilisateur
Uasti
Murloc
Murloc
avatar

Nombre de messages : 1302
Date d'inscription : 17/08/2005

MessageSujet: Re: T'écoutes quoi là?   Dim 7 Mai - 7:31

Moi m'en fout Gugul!
J'aime bien cette chanson, contrairement aux autres qu'ils ont pu faire, na!

Nerf le bruit! Wink

(et là, je vais écouter le bruit de la douche Smile)
Revenir en haut Aller en bas
Voir le profil de l'utilisateur
Invité
Invité



MessageSujet: Re: T'écoutes quoi là?   Mar 9 Mai - 2:04

aaah Ptitcress

Citation :
Burning spears


tu remontes dans mon estime a grand pas la ....bravo !!


chez moi c'est Toots And The Maytals " Funky Kingston "


batman
Revenir en haut Aller en bas
Gorghorbey
Dindon
Dindon
avatar

Nombre de messages : 230
Localisation : Chez Dexter
Date d'inscription : 14/08/2005

MessageSujet: Re: T'écoutes quoi là?   Mar 9 Mai - 5:35

+ 1 avec Gul pour System of a down, même si j ai une préférence pour "Steal this album"

Sinon, j écoute Freedom for King Kong : sodocratie.

Groupe découvert lors de notre virée en Bretagne avec Aola.

Special Kiss à ma chérie !!!

Very Happy Very Happy Very Happy
Revenir en haut Aller en bas
Voir le profil de l'utilisateur http://changerlemonde.over-blog.com/
Invité
Invité



MessageSujet: Re: T'écoutes quoi là?   Mar 9 Mai - 5:38

SO DO CRA TIE Sodocratie ...

merci mon amour I love you



bon comme vous pouvez le voir a la maison le combat est rude ...gorghor et sa musique qui fait mal aux oreilles :DD et moi et mon reggae afro



Sinsemilia " bienvenue en Chiraquie "



batman
Revenir en haut Aller en bas
Gorghorbey
Dindon
Dindon
avatar

Nombre de messages : 230
Localisation : Chez Dexter
Date d'inscription : 14/08/2005

MessageSujet: Re: T'écoutes quoi là?   Mar 9 Mai - 7:09

Gna gna gna gna gna gna gna...

Twisted Evil Evil or Very Mad Twisted Evil Evil or Very Mad Twisted Evil Evil or Very Mad Twisted Evil Evil or Very Mad

Freedom for King Kong : A fleur de peau
Revenir en haut Aller en bas
Voir le profil de l'utilisateur http://changerlemonde.over-blog.com/
Deuteros
Hyène
Hyène
avatar

Nombre de messages : 751
Date d'inscription : 13/09/2005

MessageSujet: Re: T'écoutes quoi là?   Mar 9 Mai - 7:34

La je suis sur un Live de New Model Army, 'Whitelight'.

Ils donnent le mp3 gratuitement sur leur site:

http://www.newmodelarmy.org/download/Whitelight.mp3

J'ai decouvert ca en cherchant desesperement un concert sur Londres pour des potes la veile du jour J. Plutot chanceux Smile

(Ca marche pas a tous les coups, j'ai fait la meme avec the kicks, c'etait pas terrible What a Face )
Revenir en haut Aller en bas
Voir le profil de l'utilisateur
Invité
Invité



MessageSujet: Re: T'écoutes quoi là?   Mar 9 Mai - 8:48

et c'est la sortie de l'album des Red hot chili peppers !!! :DD



bon red hot a tous alors Very Happy




"The pea" ....red hot chili peppers ...excellente :DD



batman
Revenir en haut Aller en bas
ptitcress
Murloc
Murloc
avatar

Nombre de messages : 1008
Localisation : paris
Date d'inscription : 04/12/2005

MessageSujet: Re: T'écoutes quoi là?   Mar 9 Mai - 9:02

Maintenant j'écoute Joe Cocker !!!!



Et un peu de lounge aussi : Max Leonidas !!!!
Revenir en haut Aller en bas
Voir le profil de l'utilisateur
Longshu
Hyène
Hyène
avatar

Nombre de messages : 727
Localisation : Paris
Date d'inscription : 09/09/2005

MessageSujet: Re: T'écoutes quoi là?   Sam 13 Mai - 5:46

Led Zeppelin : All my love, que du bon Smile
Revenir en haut Aller en bas
Voir le profil de l'utilisateur
Durein
Hyène
Hyène
avatar

Nombre de messages : 738
Localisation : A ton avis...
Date d'inscription : 08/03/2006

MessageSujet: Re: T'écoutes quoi là?   Sam 13 Mai - 12:28

Muse===>Hysteria
Revenir en haut Aller en bas
Voir le profil de l'utilisateur
Donavon
Hyène
Hyène
avatar

Nombre de messages : 631
Localisation : Paris
Date d'inscription : 22/08/2005

MessageSujet: Re: T'écoutes quoi là?   Sam 13 Mai - 18:05

un petit coup du dernier red hot avant de dormir : torture me (flea de retour à la trompette ca fait plaisir)
Revenir en haut Aller en bas
Voir le profil de l'utilisateur
zamilka
Chien
Chien
avatar

Nombre de messages : 85
Date d'inscription : 24/02/2006

MessageSujet: Re: T'écoutes quoi là?   Sam 13 Mai - 18:16

en parlant de Muse, vous pouvez zapper leur dernier single... sauf si vous aimez Prince, Mickaël Jackson et les refrains laveurs de cerveau dwarf
Revenir en haut Aller en bas
Voir le profil de l'utilisateur
Deuteros
Hyène
Hyène
avatar

Nombre de messages : 751
Date d'inscription : 13/09/2005

MessageSujet: Re: T'écoutes quoi là?   Ven 19 Mai - 10:44

J'aime bien Muse Very Happy. Ca traine souvent dans mon lecteur de meupeutrois. Mais j'ai pas ecoute les dernieres.

La, je suis sur Janis Joplin 'Son of a Preacher Man'.

A bah tient, la ca a enchaine avec un son de la BO de Kill Bill 'Bang Bang', de Nancy Sinatra.

Vous avez ete sages, je file la tablature Very Happy
Code:


Intro:

e|-1-------------1---------0---------------1-------
B|-1------1------2---2-1---1-----2-1-------1-------
G|-1----1---3-1--3--3----3-3---------3-1-0-1-------
D|-3--3----------3-3-------2---2-----------3-------
A|-------------------------3-3-------------3-------
E|-------------------------------------------------

VERSE 1:   
e|-----------------------------------------------------------0--------------|
B|-----0-----------------------------0----------------------0---------------|
G|----0-----------------------------0----------------------0----------------|
D|---2-----------------------------2----------------------0-----------------|
A|--2-----------------------------2-----------------------------------------|
E|--------------------------------------------------------------------------|
    I was five and he was six. We rode on horses made of sticks

e|--------------------------------------------------------------------------|
B|-----1-----------------------------------------0--------------------------|
G|----2-----------------------------------------2---------------------------|
D|---2-----------------------------------------1----------------------------|
A|--0-----------------------------------------2-----------------------------|
E|--------------------------------------------------------------------------|
    He wore black and I wore white. He would always win the fight

CHORUS 1:
e|--------------------------------------------------------------------------|
B|----------0--------------------------0------------------------------------|
G|---------0--------------------------0-------------------------------------|
D|--------2--------------------------2--------------------------------------|
A|-------2--------------------------2---------------------------------------|
E|--------------------------------------------------------------------------|
    Bang Bang. He shot me down Bang Bang. I hit the ground

e|-----------------------------------------------2--------------------------|
B|----------1---------------------------0-------0-------------0-------------|
G|---------2---------------------------2-------2-------------0--------------|
D|--------2---------------------------1-------1-------------2---------------|
A|-------0---------------------------2---------------------2----------------|
E|--------------------------------------------------------------------------|
    Bang Bang. That awful sound Bang Bang. My baby shot me down

Intro:

e|-1-------------1---------0---------------1-------
B|-1------1------2---2-1---1-----2-1-------1-------
G|-1----1---3-1--3--3----3-3---------3-1-0-1-------
D|-3--3----------3-3-------2---2-----------3-------
A|-------------------------3-3-------------3-------
E|-------------------------------------------------

VERSE 2:
Seasons came and changed the time. When I grew up. I called him mine
He would always laugh and say "Remember when we used to play?"

CHORUS 2:
Bang Bang. I shot you down Bang Bang. You hit the ground
Bang Bang. That awful sound Bang Bang. I used to shoot you down

BRIDGE:
e|----------------------------------3--2------------------------------------|
B|---------------------------------5--3-------------------------------------|
G|--------------------------------4--2--------------------------------------|
D|--------------------------------------------------------------------------|
A|--------------------------------------------------------------------------|
E|--------------------------------------------------------------------------|
    Music played and people sang.        Just for me the church bells rang

e|--------------------------------------------------------------------------|
B|-----1---1---1---3---1---3---1---1-----0--1~3-1------0--------------------|
G|----0---0---0---0---0---0---0---0-----2--2----------2---------------------|
D|---2---2-------2-------2-------2-----1-------------1----------------------|
A|--3-----------------------------------------------2-----------------------|
E|--------------------------------------------------------------------------|

VERSE 3:
Now he's gone. I don't know why. And till this day. Sometimes I cry
He didn't even say "goodbye". He didn't take the time to lie

CHORUS 3:
Bang Bang. He shot me down Bang Bang. I hit the ground
Bang Bang. That awful sound Bang Bang. My baby shot me down
Revenir en haut Aller en bas
Voir le profil de l'utilisateur
Deuteros
Hyène
Hyène
avatar

Nombre de messages : 751
Date d'inscription : 13/09/2005

MessageSujet: Re: T'écoutes quoi là?   Ven 19 Mai - 11:04

Alle j'en rajoute une couche, car j'adore les paroles.

Miossec, 'Je ne suis plus saoul'

Je vous téléphone encore, ivre mort au matin
Car aujourd'hui, c'est la Saint Valentin
Et je me remémore notre nuit très bien
Comme un crabe déjà mort
Tu t'ouvrais entre mes mains
Ceci est mon voeu, ceci est ma prière
Je te la fais, les deux genoux à terre

Non non non non non
Non non non non non
Je ne suis plus saoul
Un peu à bout c'est rien
Moi je crois en toi
C'est tout

Allo oui c'est moi encore, écoute moi bien
Moi la nuit quand je m'endors
Je t'imagine très bien
Perdue sous d'autres corps
Me réclamant en vain
Bouffée par les remords de la Saint Valentin

Non non non non non
Non non non non non
Je ne suis plus saoul
Un peu à bout c'est rien
Moi je crois en toi
C'est tout

Mais ne raccroche pas encore, écoute moi bien
Moi je voudrais qu'une fois encore
Tu me prennes pour quelqu'un
Que tes yeux brillent si fort
Comme moi quand je suis plein
Bouffé par les remords de la Saint Valentin
Revenir en haut Aller en bas
Voir le profil de l'utilisateur
Contenu sponsorisé




MessageSujet: Re: T'écoutes quoi là?   

Revenir en haut Aller en bas
 
T'écoutes quoi là?
Voir le sujet précédent Voir le sujet suivant Revenir en haut 
Page 3 sur 5Aller à la page : Précédent  1, 2, 3, 4, 5  Suivant
 Sujets similaires
-
» Je ne sait plus quoi faire....AIDEZ-MOI!!!!!!
» dans quoi planter des plantes grasses?
» C'est quoi ça ou etend ton linge en avant....
» AVEC QUOI BOUCHER UN TROU ?
» pustule qui grossit: quoi faire???

Permission de ce forum:Vous ne pouvez pas répondre aux sujets dans ce forum
Forum de la VII Compagnie :: La Taverne :: La Taverne-
Sauter vers: